  0
SECTION
  2
HEADER
  9
$ACADVER
  1
AC1015
  9
$ACADMAINTVER
 70
     6
  9
$DWGCODEPAGE
  3
ANSI_1254
  9
$INSBASE
 10
0.0
 20
0.0
 30
0.0
  9
$EXTMIN
 10
0.0
 20
0.0
 30
0.0
  9
$EXTMAX
 10
279.4
 20
215.9
 30
0.0
  9
$LIMMIN
 10
0.0
 20
0.0
  9
$LIMMAX
 10
279.4
 20
215.9
  9
$ORTHOMODE
 70
     0
  9
$REGENMODE
 70
     1
  9
$FILLMODE
 70
     1
  9
$QTEXTMODE
 70
     0
  9
$MIRRTEXT
 70
     1
  9
$LTSCALE
 40
1.0
  9
$ATTMODE
 70
     1
  9
$TEXTSIZE
 40
3.5
  9
$TRACEWID
 40
1.0
  9
$TEXTSTYLE
  7
Standard
  9
$CLAYER
  8
0
  9
$CELTYPE
  6
ByLayer
  9
$CECOLOR
 62
   256
  9
$CELTSCALE
 40
1.0
  9
$DISPSILH
 70
     0
  9
$DIMSCALE
 40
1.0
  9
$DIMASZ
 40
3.5
  9
$DIMEXO
 40
1.0
  9
$DIMDLI
 40
3.75
  9
$DIMRND
 40
0.0
  9
$DIMDLE
 40
0.0
  9
$DIMEXE
 40
1.0
  9
$DIMTP
 40
0.0
  9
$DIMTM
 40
0.0
  9
$DIMTXT
 40
3.5
  9
$DIMCEN
 40
2.5
  9
$DIMTSZ
 40
0.0
  9
$DIMTOL
 70
     0
  9
$DIMLIM
 70
     0
  9
$DIMTIH
 70
     1
  9
$DIMTOH
 70
     1
  9
$DIMSE1
 70
     0
  9
$DIMSE2
 70
     0
  9
$DIMTAD
 70
     1
  9
$DIMZIN
 70
     0
  9
$DIMBLK
  1

  9
$DIMASO
 70
     1
  9
$DIMSHO
 70
     1
  9
$DIMPOST
  1

  9
$DIMAPOST
  1

  9
$DIMALT
 70
     0
  9
$DIMALTD
 70
     3
  9
$DIMALTF
 40
0.0393700787
  9
$DIMLFAC
 40
1.0
  9
$DIMTOFL
 70
     1
  9
$DIMTVP
 40
0.0
  9
$DIMTIX
 70
     0
  9
$DIMSOXD
 70
     0
  9
$DIMSAH
 70
     0
  9
$DIMBLK1
  1

  9
$DIMBLK2
  1

  9
$DIMSTYLE
  2
ISO-25
  9
$DIMCLRD
 70
     0
  9
$DIMCLRE
 70
     0
  9
$DIMCLRT
 70
     0
  9
$DIMTFAC
 40
1.0
  9
$DIMGAP
 40
1.524
  9
$DIMJUST
 70
     0
  9
$DIMSD1
 70
     0
  9
$DIMSD2
 70
     0
  9
$DIMTOLJ
 70
     0
  9
$DIMTZIN
 70
     0
  9
$DIMALTZ
 70
     0
  9
$DIMALTTZ
 70
     0
  9
$DIMUPT
 70
     0
  9
$DIMDEC
 70
     2
  9
$DIMTDEC
 70
     2
  9
$DIMALTU
 70
     2
  9
$DIMALTTD
 70
     3
  9
$DIMTXSTY
  7
Standard
  9
$DIMAUNIT
 70
     0
  9
$DIMADEC
 70
     2
  9
$DIMALTRND
 40
0.0
  9
$DIMAZIN
 70
     0
  9
$DIMDSEP
 70
    44
  9
$DIMATFIT
 70
     3
  9
$DIMFRAC
 70
     0
  9
$DIMLDRBLK
  1

  9
$DIMLUNIT
 70
     2
  9
$DIMLWD
 70
    -2
  9
$DIMLWE
 70
    -2
  9
$DIMTMOVE
 70
     0
  9
$LUNITS
 70
     2
  9
$LUPREC
 70
     2
  9
$SKETCHINC
 40
1.0
  9
$FILLETRAD
 40
10.0
  9
$AUNITS
 70
     0
  9
$AUPREC
 70
     2
  9
$MENU
  1
.
  9
$ELEVATION
 40
0.0
  9
$PELEVATION
 40
0.0
  9
$THICKNESS
 40
0.0
  9
$LIMCHECK
 70
     0
  9
$CHAMFERA
 40
0.0
  9
$CHAMFERB
 40
0.0
  9
$CHAMFERC
 40
0.0
  9
$CHAMFERD
 40
0.0
  9
$SKPOLY
 70
     0
  9
$TDCREATE
 40
2460608.530436007
  9
$TDUCREATE
 40
2460608.405436007
  9
$TDUPDATE
 40
2460608.530436111
  9
$TDUUPDATE
 40
2460608.405436111
  9
$TDINDWG
 40
0.0000000116
  9
$TDUSRTIMER
 40
0.0000000116
  9
$USRTIMER
 70
     1
  9
$ANGBASE
 50
0.0
  9
$ANGDIR
 70
     0
  9
$PDMODE
 70
     0
  9
$PDSIZE
 40
-1.0
  9
$PLINEWID
 40
0.0
  9
$SPLFRAME
 70
     0
  9
$SPLINETYPE
 70
     6
  9
$SPLINESEGS
 70
     8
  9
$HANDSEED
  5
D2
  9
$SURFTAB1
 70
     6
  9
$SURFTAB2
 70
     6
  9
$SURFTYPE
 70
     6
  9
$SURFU
 70
     6
  9
$SURFV
 70
     6
  9
$UCSBASE
  2

  9
$UCSNAME
  2

  9
$UCSORG
 10
0.0
 20
0.0
 30
0.0
  9
$UCSXDIR
 10
1.0
 20
0.0
 30
0.0
  9
$UCSYDIR
 10
0.0
 20
1.0
 30
0.0
  9
$UCSORTHOREF
  2

  9
$UCSORTHOVIEW
 70
     0
  9
$UCSORGTOP
 10
0.0
 20
0.0
 30
0.0
  9
$UCSORGBOTTOM
 10
0.0
 20
0.0
 30
0.0
  9
$UCSORGLEFT
 10
0.0
 20
0.0
 30
0.0
  9
$UCSORGRIGHT
 10
0.0
 20
0.0
 30
0.0
  9
$UCSORGFRONT
 10
0.0
 20
0.0
 30
0.0
  9
$UCSORGBACK
 10
0.0
 20
0.0
 30
0.0
  9
$PUCSBASE
  2

  9
$PUCSNAME
  2

  9
$PUCSORG
 10
0.0
 20
0.0
 30
0.0
  9
$PUCSXDIR
 10
1.0
 20
0.0
 30
0.0
  9
$PUCSYDIR
 10
0.0
 20
1.0
 30
0.0
  9
$PUCSORTHOREF
  2

  9
$PUCSORTHOVIEW
 70
     0
  9
$PUCSORGTOP
 10
0.0
 20
0.0
 30
0.0
  9
$PUCSORGBOTTOM
 10
0.0
 20
0.0
 30
0.0
  9
$PUCSORGLEFT
 10
0.0
 20
0.0
 30
0.0
  9
$PUCSORGRIGHT
 10
0.0
 20
0.0
 30
0.0
  9
$PUCSORGFRONT
 10
0.0
 20
0.0
 30
0.0
  9
$PUCSORGBACK
 10
0.0
 20
0.0
 30
0.0
  9
$USERI1
 70
     0
  9
$USERI2
 70
     0
  9
$USERI3
 70
     0
  9
$USERI4
 70
     0
  9
$USERI5
 70
     0
  9
$USERR1
 40
0.0
  9
$USERR2
 40
0.0
  9
$USERR3
 40
0.0
  9
$USERR4
 40
0.0
  9
$USERR5
 40
0.0
  9
$WORLDVIEW
 70
     1
  9
$SHADEDGE
 70
     3
  9
$SHADEDIF
 70
    70
  9
$TILEMODE
 70
     1
  9
$MAXACTVP
 70
    64
  9
$PINSBASE
 10
0.0
 20
0.0
 30
0.0
  9
$PLIMCHECK
 70
     0
  9
$PEXTMIN
 10
1.0000000000E+20
 20
1.0000000000E+20
 30
1.0000000000E+20
  9
$PEXTMAX
 10
-1.0000000000E+20
 20
-1.0000000000E+20
 30
-1.0000000000E+20
  9
$PLIMMIN
 10
0.0
 20
0.0
  9
$PLIMMAX
 10
420.0
 20
297.0
  9
$UNITMODE
 70
     0
  9
$VISRETAIN
 70
     1
  9
$PLINEGEN
 70
     0
  9
$PSLTSCALE
 70
     1
  9
$TREEDEPTH
 70
  3020
  9
$CMLSTYLE
  2
Standard
  9
$CMLJUST
 70
     0
  9
$CMLSCALE
 40
20.0
  9
$PROXYGRAPHICS
 70
     1
  9
$MEASUREMENT
 70
     1
  9
$CELWEIGHT
370
    -1
  9
$ENDCAPS
280
     0
  9
$JOINSTYLE
280
     0
  9
$LWDISPLAY
290
     1
  9
$INSUNITS
 70
     4
  9
$HYPERLINKBASE
  1

  9
$STYLESHEET
  1

  9
$XEDIT
290
     1
  9
$CEPSNTYPE
380
     0
  9
$PSTYLEMODE
290
     1
  9
$FINGERPRINTGUID
  2
{943576a5-5d4d-4313-b8e1-d12c5a5958ec}
  9
$VERSIONGUID
  2
{FAEB1C32-E019-11D5-929B-00C0DF256EC4}
  9
$EXTNAMES
290
     1
  9
$PSVPSCALE
 40
0.0
  9
$OLESTARTUP
290
     0
  0
ENDSEC
  0
SECTION
  2
CLASSES
  0
CLASS
  1
ACDBDICTIONARYWDFLT
  2
AcDbDictionaryWithDefault
  3
ObjectDBX Classes
 90
        0
280
     0
281
     0
  0
CLASS
  1
VISUALSTYLE
  2
AcDbVisualStyle
  3
ObjectDBX Classes
 90
     4095
280
     0
281
     0
  0
CLASS
  1
MATERIAL
  2
AcDbMaterial
  3
ObjectDBX Classes
 90
     1153
280
     0
281
     0
  0
CLASS
  1
SCALE
  2
AcDbScale
  3
ObjectDBX Classes
 90
     1153
280
     0
281
     0
  0
CLASS
  1
TABLESTYLE
  2
AcDbTableStyle
  3
ObjectDBX Classes
 90
     4095
280
     0
281
     0
  0
CLASS
  1
MLEADERSTYLE
  2
AcDbMLeaderStyle
  3
ACDB_MLEADERSTYLE_CLASS
 90
     4095
280
     0
281
     0
  0
CLASS
  1
SUN
  2
AcDbSun
  3
SCENEOE
 90
     1153
280
     0
281
     0
  0
CLASS
  1
ACDBPLACEHOLDER
  2
AcDbPlaceHolder
  3
ObjectDBX Classes
 90
        0
280
     0
281
     0
  0
CLASS
  1
LAYOUT
  2
AcDbLayout
  3
ObjectDBX Classes
 90
        0
280
     0
281
     0
  0
ENDSEC
  0
SECTION
  2
TABLES
  0
TABLE
  2
VPORT
  5
8
330
0
100
AcDbSymbolTable
 70
     1
  0
VPORT
  5
29
330
8
100
AcDbSymbolTableRecord
100
AcDbViewportTableRecord
  2
*Active
 70
     0
 10
0.0
 20
0.0
 11
1.0
 21
1.0
 12
139.7
 22
107.95
 13
0.0
 23
0.0
 14
10.0
 24
10.0
 15
10.0
 25
10.0
 16
0.0
 26
0.0
 36
1.0
 17
0.0
 27
0.0
 37
0.0
 40
215.9
 41
1.2941176471
 42
50.0
 43
0.0
 44
0.0
 50
0.0
 51
0.0
 71
     0
 72
  2000
 73
     1
 74
     3
 75
     0
 76
     0
 77
     0
 78
     0
281
     0
 65
     1
110
0.0
120
0.0
130
0.0
111
1.0
121
0.0
131
0.0
112
0.0
122
1.0
132
0.0
 79
     0
146
0.0
  0
ENDTAB
  0
TABLE
  2
LTYPE
  5
5
330
0
100
AcDbSymbolTable
 70
     6
  0
LTYPE
  5
14
330
5
100
AcDbSymbolTableRecord
100
AcDbLinetypeTableRecord
  2
ByBlock
 70
     0
  3

 72
    65
 73
     0
 40
0.0
  0
LTYPE
  5
15
330
5
100
AcDbSymbolTableRecord
100
AcDbLinetypeTableRecord
  2
ByLayer
 70
     0
  3

 72
    65
 73
     0
 40
0.0
  0
LTYPE
  5
16
330
5
100
AcDbSymbolTableRecord
100
AcDbLinetypeTableRecord
  2
Continuous
 70
     0
  3
Solid line
 72
    65
 73
     0
 40
0.0
  0
LTYPE
  5
6E
330
5
100
AcDbSymbolTableRecord
100
AcDbLinetypeTableRecord
  2
HIDDEN
 70
     0
  3
Hidden __ __ __ __ __ __ __ __ __ __ __ __ __ __
 72
    65
 73
     2
 40
1.905
 49
1.27
 74
     0
 49
-0.635
 74
     0
  0
LTYPE
  5
6F
330
5
100
AcDbSymbolTableRecord
100
AcDbLinetypeTableRecord
  2
PHANTOM
 70
     0
  3
Phantom ______  __  __  ______  __  __  ______
 72
    65
 73
     6
 40
12.7
 49
6.35
 74
     0
 49
-1.27
 74
     0
 49
1.27
 74
     0
 49
-1.27
 74
     0
 49
1.27
 74
     0
 49
-1.27
 74
     0
  0
LTYPE
  5
70
330
5
100
AcDbSymbolTableRecord
100
AcDbLinetypeTableRecord
  2
CENTER
 70
     0
  3
Center ____ _ ____ _ ____ _ ____ _ ____ _ ____
 72
    65
 73
     4
 40
10.16
 49
6.35
 74
     0
 49
-1.27
 74
     0
 49
1.27
 74
     0
 49
-1.27
 74
     0
  0
LTYPE
  5
71
330
5
100
AcDbSymbolTableRecord
100
AcDbLinetypeTableRecord
  2
CENTERX2
 70
     0
  3
Center (2x) ________  __  ________  __  _____
 72
    65
 73
     4
 40
20.32
 49
12.7
 74
     0
 49
-2.54
 74
     0
 49
2.54
 74
     0
 49
-2.54
 74
     0
  0
LTYPE
  5
72
330
5
100
AcDbSymbolTableRecord
100
AcDbLinetypeTableRecord
  2
DOT2
 70
     0
  3
Dot (.5x) ........................................
 72
    65
 73
     2
 40
0.635
 49
0.0
 74
     0
 49
-0.635
 74
     0
  0
ENDTAB
  0
TABLE
  2
LAYER
  5
2
330
0
100
AcDbSymbolTable
 70
    17
  0
LAYER
  5
10
330
2
100
AcDbSymbolTableRecord
100
AcDbLayerTableRecord
  2
0
 70
     0
 62
     7
  6
Continuous
370
    -3
390
F
  0
LAYER
  5
73
330
2
100
AcDbSymbolTableRecord
100
AcDbLayerTableRecord
  2
FORMAT
 70
     0
 62
     7
  6
Continuous
370
    -3
390
F
  0
LAYER
  5
74
330
2
100
AcDbSymbolTableRecord
100
AcDbLayerTableRecord
  2
YARDIMCI_GEOMETRI
 70
     0
 62
    -6
  6
Continuous
290
     0
370
    -3
390
F
  0
LAYER
  5
75
330
2
100
AcDbSymbolTableRecord
100
AcDbLayerTableRecord
  2
SAYFA_CERCEVESI
 70
     0
 62
     7
  6
Continuous
370
    25
390
F
  0
LAYER
  5
76
330
2
100
AcDbSymbolTableRecord
100
AcDbLayerTableRecord
  2
ANTET
 70
     0
 62
     7
  6
Continuous
370
    -3
390
F
  0
LAYER
  5
77
330
2
100
AcDbSymbolTableRecord
100
AcDbLayerTableRecord
  2
OLCU
 70
     0
 62
   150
  6
Continuous
370
    -3
390
F
  0
LAYER
  5
78
330
2
100
AcDbSymbolTableRecord
100
AcDbLayerTableRecord
  2
METIN
 70
     0
 62
    96
  6
Continuous
370
    -3
390
F
  0
LAYER
  5
79
330
2
100
AcDbSymbolTableRecord
100
AcDbLayerTableRecord
  2
BALON
 70
     0
 62
     5
  6
Continuous
370
    -3
390
F
  0
LAYER
  5
7A
330
2
100
AcDbSymbolTableRecord
100
AcDbLayerTableRecord
  2
VURGU
 70
     0
 62
     7
  6
Continuous
370
    -3
390
F
  0
LAYER
  5
7B
330
2
100
AcDbSymbolTableRecord
100
AcDbLayerTableRecord
  2
SILIK
 70
     0
 62
     7
  6
Continuous
370
    -3
390
F
  0
LAYER
  5
7C
330
2
100
AcDbSymbolTableRecord
100
AcDbLayerTableRecord
  2
MODEL
 70
     0
 62
     7
  6
Continuous
370
    -3
390
F
  0
LAYER
  5
7D
330
2
100
AcDbSymbolTableRecord
100
AcDbLayerTableRecord
  2
DETAYLANDıRMA
 70
     0
 62
   190
  6
Continuous
370
    -3
390
F
  0
LAYER
  5
7E
330
2
100
AcDbSymbolTableRecord
100
AcDbLayerTableRecord
  2
TOLERANS
 70
     0
 62
   230
  6
Continuous
370
    -3
390
F
  0
LAYER
  5
7F
330
2
100
AcDbSymbolTableRecord
100
AcDbLayerTableRecord
  2
MERKEZ_CIZGILERI
 70
     0
 62
    30
  6
Continuous
370
    -3
390
F
  0
LAYER
  5
80
330
2
100
AcDbSymbolTableRecord
100
AcDbLayerTableRecord
  2
KESIT-DETAY_CIZGILERI
 70
     0
 62
     7
  6
Continuous
370
    -3
390
F
  0
LAYER
  5
81
330
2
100
AcDbSymbolTableRecord
100
AcDbLayerTableRecord
  2
\U+041E\U+0421\U+0415\U+0412\U+042B\U+0415
 70
     0
 62
     7
  6
Continuous
370
    -3
390
F
  0
LAYER
  5
82
330
2
100
AcDbSymbolTableRecord
100
AcDbLayerTableRecord
  2
\U+0412\U+041E\U+0414\U+042F\U+041D\U+042B\U+0415_\U+0417\U+041D\U+0410\U+041A\U+0418
 70
     0
 62
    11
  6
Continuous
370
    -3
390
F
  0
ENDTAB
  0
TABLE
  2
STYLE
  5
3
330
0
100
AcDbSymbolTable
 70
     1
  0
STYLE
  5
11
330
3
100
AcDbSymbolTableRecord
100
AcDbTextStyleTableRecord
  2
Standard
 70
     0
 40
0.0
 41
1.0
 50
0.0
 71
     0
 42
3.5
  3
txt
  4

  0
ENDTAB
  0
TABLE
  2
VIEW
  5
6
330
0
100
AcDbSymbolTable
 70
     0
  0
ENDTAB
  0
TABLE
  2
UCS
  5
7
330
0
100
AcDbSymbolTable
 70
     0
  0
ENDTAB
  0
TABLE
  2
APPID
  5
9
330
0
100
AcDbSymbolTable
 70
     1
  0
APPID
  5
12
330
9
100
AcDbSymbolTableRecord
100
AcDbRegAppTableRecord
  2
ACAD
 70
     0
  0
ENDTAB
  0
TABLE
  2
DIMSTYLE
  5
A
330
0
100
AcDbSymbolTable
 70
     1
100
AcDbDimStyleTable
  0
DIMSTYLE
105
27
330
A
100
AcDbSymbolTableRecord
100
AcDbDimStyleTableRecord
  2
ISO-25
 70
     0
 41
2.5
 42
0.625
 43
3.75
 44
1.25
 73
     0
 74
     0
 77
     1
 78
     8
140
2.5
141
2.5
143
0.0393700787
147
0.625
171
     3
172
     1
178
     0
271
     2
272
     2
274
     3
278
    44
283
     0
284
     8
340
11
  0
ENDTAB
  0
TABLE
  2
BLOCK_RECORD
  5
1
330
0
100
AcDbSymbolTable
 70
     3
  0
BLOCK_RECORD
  5
1F
330
1
100
AcDbSymbolTableRecord
100
AcDbBlockTableRecord
  2
*Model_Space
340
22
  0
BLOCK_RECORD
  5
1B
330
1
100
AcDbSymbolTableRecord
100
AcDbBlockTableRecord
  2
*Paper_Space
340
1E
  0
BLOCK_RECORD
  5
23
330
1
100
AcDbSymbolTableRecord
100
AcDbBlockTableRecord
  2
*Paper_Space0
340
26
  0
BLOCK_RECORD
  5
8D
330
1
100
AcDbSymbolTableRecord
100
AcDbBlockTableRecord
  2
SW_CENTERMARKSYMBOL_0
340
0
102
{BLKREFS
331
98
102
}
  0
BLOCK_RECORD
  5
C5
330
1
100
AcDbSymbolTableRecord
100
AcDbBlockTableRecord
  2
SW_CENTERMARKSYMBOL_1
340
0
102
{BLKREFS
331
D0
102
}
  0
ENDTAB
  0
ENDSEC
  0
SECTION
  2
BLOCKS
  0
BLOCK
  5
20
330
1F
100
AcDbEntity
  8
0
100
AcDbBlockBegin
  2
*Model_Space
 70
     0
 10
0.0
 20
0.0
 30
0.0
  3
*Model_Space
  1

  0
ENDBLK
  5
21
330
1F
100
AcDbEntity
  8
0
100
AcDbBlockEnd
  0
BLOCK
  5
1C
330
1B
100
AcDbEntity
 67
     1
  8
0
100
AcDbBlockBegin
  2
*Paper_Space
 70
     0
 10
0.0
 20
0.0
 30
0.0
  3
*Paper_Space
  1

  0
ENDBLK
  5
1D
330
1B
100
AcDbEntity
 67
     1
  8
0
100
AcDbBlockEnd
  0
BLOCK
  5
24
330
23
100
AcDbEntity
  8
0
100
AcDbBlockBegin
  2
*Paper_Space0
 70
     0
 10
0.0
 20
0.0
 30
0.0
  3
*Paper_Space0
  1

  0
ENDBLK
  5
25
330
23
100
AcDbEntity
  8
0
100
AcDbBlockEnd
  0
BLOCK
  5
8E
330
8D
100
AcDbEntity
  8
0
100
AcDbBlockBegin
  2
SW_CENTERMARKSYMBOL_0
 70
     0
 10
0.0
 20
0.0
 30
0.0
  3
SW_CENTERMARKSYMBOL_0
  1

  0
LINE
  5
90
330
8D
100
AcDbEntity
  8
FORMAT
 62
     0
100
AcDbLine
 10
0.0
 20
0.0
 30
0.0
 11
0.0
 21
2.5
 31
0.0
  0
LINE
  5
91
330
8D
100
AcDbEntity
  8
FORMAT
 62
     0
100
AcDbLine
 10
0.0
 20
0.0
 30
0.0
 11
-2.5
 21
0.0
 31
0.0
  0
LINE
  5
92
330
8D
100
AcDbEntity
  8
FORMAT
 62
     0
100
AcDbLine
 10
0.0
 20
0.0
 30
0.0
 11
0.0
 21
-2.5
 31
0.0
  0
LINE
  5
93
330
8D
100
AcDbEntity
  8
FORMAT
 62
     0
100
AcDbLine
 10
0.0
 20
0.0
 30
0.0
 11
2.5
 21
0.0
 31
0.0
  0
LINE
  5
94
330
8D
100
AcDbEntity
  8
FORMAT
 62
     0
100
AcDbLine
 10
0.0
 20
5.0
 30
0.0
 11
0.0
 21
227.5
 31
0.0
  0
LINE
  5
95
330
8D
100
AcDbEntity
  8
FORMAT
 62
     0
100
AcDbLine
 10
-5.0
 20
0.0
 30
0.0
 11
-227.5
 21
0.0
 31
0.0
  0
LINE
  5
96
330
8D
100
AcDbEntity
  8
FORMAT
 62
     0
100
AcDbLine
 10
0.0
 20
-5.0
 30
0.0
 11
0.0
 21
-227.5
 31
0.0
  0
LINE
  5
97
330
8D
100
AcDbEntity
  8
FORMAT
 62
     0
100
AcDbLine
 10
5.0
 20
0.0
 30
0.0
 11
227.5
 21
0.0
 31
0.0
  0
ENDBLK
  5
8F
330
8D
100
AcDbEntity
  8
0
100
AcDbBlockEnd
  0
BLOCK
  5
C6
330
C5
100
AcDbEntity
  8
0
100
AcDbBlockBegin
  2
SW_CENTERMARKSYMBOL_1
 70
     0
 10
0.0
 20
0.0
 30
0.0
  3
SW_CENTERMARKSYMBOL_1
  1

  0
LINE
  5
C8
330
C5
100
AcDbEntity
  8
FORMAT
 62
     0
100
AcDbLine
 10
0.0
 20
0.0
 30
0.0
 11
0.0
 21
2.5
 31
0.0
  0
LINE
  5
C9
330
C5
100
AcDbEntity
  8
FORMAT
 62
     0
100
AcDbLine
 10
0.0
 20
0.0
 30
0.0
 11
-2.5
 21
0.0
 31
0.0
  0
LINE
  5
CA
330
C5
100
AcDbEntity
  8
FORMAT
 62
     0
100
AcDbLine
 10
0.0
 20
0.0
 30
0.0
 11
0.0
 21
-2.5
 31
0.0
  0
LINE
  5
CB
330
C5
100
AcDbEntity
  8
FORMAT
 62
     0
100
AcDbLine
 10
0.0
 20
0.0
 30
0.0
 11
2.5
 21
0.0
 31
0.0
  0
LINE
  5
CC
330
C5
100
AcDbEntity
  8
FORMAT
 62
     0
100
AcDbLine
 10
0.0
 20
5.0
 30
0.0
 11
0.0
 21
227.5
 31
0.0
  0
LINE
  5
CD
330
C5
100
AcDbEntity
  8
FORMAT
 62
     0
100
AcDbLine
 10
-5.0
 20
0.0
 30
0.0
 11
-227.5
 21
0.0
 31
0.0
  0
LINE
  5
CE
330
C5
100
AcDbEntity
  8
FORMAT
 62
     0
100
AcDbLine
 10
0.0
 20
-5.0
 30
0.0
 11
0.0
 21
-227.5
 31
0.0
  0
LINE
  5
CF
330
C5
100
AcDbEntity
  8
FORMAT
 62
     0
100
AcDbLine
 10
5.0
 20
0.0
 30
0.0
 11
227.5
 21
0.0
 31
0.0
  0
ENDBLK
  5
C7
330
C5
100
AcDbEntity
  8
0
100
AcDbBlockEnd
  0
ENDSEC
  0
SECTION
  2
ENTITIES
  0
LINE
  5
83
330
1F
100
AcDbEntity
  8
0
  6
Continuous
 62
     7
370
    25
100
AcDbLine
 10
-1105.169324482
 20
333.3510638298
 30
0.0
 11
-1595.169324482
 21
333.3510638298
 31
0.0
  0
LINE
  5
84
330
1F
100
AcDbEntity
  8
0
  6
Continuous
 62
     7
370
    25
100
AcDbLine
 10
-615.169324482
 20
333.3510638298
 30
0.0
 11
-1105.169324482
 21
333.3510638298
 31
0.0
  0
LINE
  5
85
330
1F
100
AcDbEntity
  8
0
  6
Continuous
 62
     7
370
    25
100
AcDbLine
 10
-1105.169324482
 20
-116.6489361702
 30
0.0
 11
-615.169324482
 21
-116.6489361702
 31
0.0
  0
LINE
  5
86
330
1F
100
AcDbEntity
  8
0
  6
Continuous
 62
     7
370
    25
100
AcDbLine
 10
-1595.169324482
 20
-116.6489361702
 30
0.0
 11
-1105.169324482
 21
-116.6489361702
 31
0.0
  0
CIRCLE
  5
87
330
1F
100
AcDbEntity
  8
0
  6
Continuous
 62
     7
370
    25
100
AcDbCircle
 10
-1105.169324482
 20
108.3510638298
 30
0.0
 40
184.0999999999998
  0
CIRCLE
  5
88
330
1F
100
AcDbEntity
  8
0
  6
Continuous
 62
     7
370
    25
100
AcDbCircle
 10
-1105.169324482
 20
108.3510638298
 30
0.0
 40
224.9999999999999
  0
LINE
  5
89
330
1F
100
AcDbEntity
  8
0
  6
Continuous
 62
     7
370
    25
100
AcDbLine
 10
-1595.169324482
 20
108.3510638298
 30
0.0
 11
-1595.169324482
 21
333.3510638298
 31
0.0
  0
LINE
  5
8A
330
1F
100
AcDbEntity
  8
0
  6
Continuous
 62
     7
370
    25
100
AcDbLine
 10
-1595.169324482
 20
-116.6489361702
 30
0.0
 11
-1595.169324482
 21
108.3510638298
 31
0.0
  0
LINE
  5
8B
330
1F
100
AcDbEntity
  8
0
  6
Continuous
 62
     7
370
    25
100
AcDbLine
 10
-615.169324482
 20
108.3510638298
 30
0.0
 11
-615.169324482
 21
333.3510638298
 31
0.0
  0
LINE
  5
8C
330
1F
100
AcDbEntity
  8
0
  6
Continuous
 62
     7
370
    25
100
AcDbLine
 10
-615.169324482
 20
-116.6489361702
 30
0.0
 11
-615.169324482
 21
108.3510638298
 31
0.0
  0
INSERT
  5
98
330
1F
100
AcDbEntity
  8
FORMAT
 62
     7
100
AcDbBlockReference
  2
SW_CENTERMARKSYMBOL_0
 10
-1105.169324482
 20
108.3510638298
 30
0.0
  0
LINE
  5
99
330
1F
100
AcDbEntity
  8
0
  6
Continuous
 62
     7
370
    25
100
AcDbLine
 10
251.9893617021
 20
1431.0925006477
 30
0.0
 11
251.9893617021
 21
1696.0925006477
 31
0.0
  0
LINE
  5
9A
330
1F
100
AcDbEntity
  8
0
  6
Continuous
 62
     7
370
    25
100
AcDbLine
 10
251.9893617021
 20
716.0925006477
 30
0.0
 11
251.9893617021
 21
981.0925006477
 31
0.0
  0
LINE
  5
9B
330
1F
100
AcDbEntity
  8
0
  6
Continuous
 62
     7
370
    25
100
AcDbLine
 10
-198.0106382979
 20
1696.0925006477
 30
0.0
 11
-198.0106382979
 21
716.0925006477
 31
0.0
  0
LINE
  5
9C
330
1F
100
AcDbEntity
  8
0
  6
Continuous
 62
     7
370
    25
100
AcDbLine
 10
251.9893617021
 20
981.0925006477
 30
0.0
 11
516.9893617021
 21
981.0925006477
 31
0.0
  0
LINE
  5
9D
330
1F
100
AcDbEntity
  8
0
  6
Continuous
 62
     7
370
    25
100
AcDbLine
 10
516.9893617021
 20
1431.0925006477
 30
0.0
 11
251.9893617021
 21
1431.0925006477
 31
0.0
  0
LINE
  5
9E
330
1F
100
AcDbEntity
  8
0
  6
Continuous
 62
     7
370
    25
100
AcDbLine
 10
251.9893617021
 20
1431.0925006477
 30
0.0
 11
26.9893617021
 21
1206.0925006477
 31
0.0
  0
LINE
  5
9F
330
1F
100
AcDbEntity
  8
0
  6
Continuous
 62
     7
370
    25
100
AcDbLine
 10
26.9893617021
 20
1206.0925006477
 30
0.0
 11
251.9893617021
 21
981.0925006477
 31
0.0
  0
LINE
  5
A0
330
1F
100
AcDbEntity
  8
0
  6
Continuous
 62
     7
370
    25
100
AcDbLine
 10
-198.0106382979
 20
1696.0925006477
 30
0.0
 11
251.9893617021
 21
1696.0925006477
 31
0.0
  0
LINE
  5
A1
330
1F
100
AcDbEntity
  8
0
  6
Continuous
 62
     7
370
    25
100
AcDbLine
 10
-198.0106382979
 20
716.0925006477
 30
0.0
 11
251.9893617021
 21
716.0925006477
 31
0.0
  0
LINE
  5
A2
330
1F
100
AcDbEntity
  8
0
  6
Continuous
 62
     7
370
    25
100
AcDbLine
 10
516.9893617021
 20
1431.0925006477
 30
0.0
 11
516.9893617021
 21
981.0925006477
 31
0.0
  0
LINE
  5
A3
330
1F
100
AcDbEntity
  8
0
  6
Continuous
 62
     7
370
    25
100
AcDbLine
 10
1519.670975948
 20
-116.6489361702
 30
0.0
 11
2009.670975948
 21
-116.6489361702
 31
0.0
  0
LINE
  5
A4
330
1F
100
AcDbEntity
  8
0
  6
Continuous
 62
     7
370
    25
100
AcDbLine
 10
1029.670975948
 20
-116.6489361702
 30
0.0
 11
1519.670975948
 21
-116.6489361702
 31
0.0
  0
LINE
  5
A5
330
1F
100
AcDbEntity
  8
0
  6
Continuous
 62
     7
370
    25
100
AcDbLine
 10
1519.670975948
 20
333.3510638298
 30
0.0
 11
1029.670975948
 21
333.3510638298
 31
0.0
  0
LINE
  5
A6
330
1F
100
AcDbEntity
  8
0
  6
Continuous
 62
     7
370
    25
100
AcDbLine
 10
2009.670975948
 20
333.3510638298
 30
0.0
 11
1519.670975948
 21
333.3510638298
 31
0.0
  0
LINE
  5
A7
330
1F
100
AcDbEntity
  8
0
  6
Continuous
 62
     7
370
    25
100
AcDbLine
 10
2009.670975948
 20
333.3510638298
 30
0.0
 11
2009.670975948
 21
-116.6489361702
 31
0.0
  0
LINE
  5
A8
330
1F
100
AcDbEntity
  8
0
  6
Continuous
 62
     7
370
    25
100
AcDbLine
 10
1029.670975948
 20
333.3510638298
 30
0.0
 11
1029.670975948
 21
-116.6489361702
 31
0.0
  0
LINE
  5
A9
330
1F
100
AcDbEntity
  8
0
  6
Continuous
 62
     7
370
    25
100
AcDbLine
 10
-198.0106382979
 20
-534.9000045931
 30
0.0
 11
-198.0106382979
 21
-1514.9000045931
 31
0.0
  0
LINE
  5
AA
330
1F
100
AcDbEntity
  8
0
  6
Continuous
 62
     7
370
    25
100
AcDbLine
 10
251.9893617021
 20
-799.9000045931
 30
0.0
 11
251.9893617021
 21
-534.9000045931
 31
0.0
  0
LINE
  5
AB
330
1F
100
AcDbEntity
  8
0
  6
Continuous
 62
     7
370
    25
100
AcDbLine
 10
251.9893617021
 20
-1514.9000045931
 30
0.0
 11
251.9893617021
 21
-1249.9000045931
 31
0.0
  0
LINE
  5
AC
330
1F
100
AcDbEntity
  8
0
  6
Continuous
 62
     7
370
    25
100
AcDbLine
 10
251.9893617021
 20
-1249.9000045931
 30
0.0
 11
516.9893617021
 21
-1249.9000045931
 31
0.0
  0
LINE
  5
AD
330
1F
100
AcDbEntity
  8
0
  6
Continuous
 62
     7
370
    25
100
AcDbLine
 10
516.9893617021
 20
-799.9000045931
 30
0.0
 11
251.9893617021
 21
-799.9000045931
 31
0.0
  0
LINE
  5
AE
330
1F
100
AcDbEntity
  8
0
  6
Continuous
 62
     7
370
    25
100
AcDbLine
 10
26.9893617021
 20
-1024.9000045931
 30
0.0
 11
251.9893617021
 21
-1249.9000045931
 31
0.0
  0
LINE
  5
AF
330
1F
100
AcDbEntity
  8
0
  6
Continuous
 62
     7
370
    25
100
AcDbLine
 10
251.9893617021
 20
-799.9000045931
 30
0.0
 11
26.9893617021
 21
-1024.9000045931
 31
0.0
  0
LINE
  5
B0
330
1F
100
AcDbEntity
  8
0
  6
Continuous
 62
     7
370
    25
100
AcDbLine
 10
251.9893617021
 20
-1514.9000045931
 30
0.0
 11
-198.0106382979
 21
-1514.9000045931
 31
0.0
  0
LINE
  5
B1
330
1F
100
AcDbEntity
  8
0
  6
Continuous
 62
     7
370
    25
100
AcDbLine
 10
251.9893617021
 20
-534.9000045931
 30
0.0
 11
-198.0106382979
 21
-534.9000045931
 31
0.0
  0
LINE
  5
B2
330
1F
100
AcDbEntity
  8
0
  6
Continuous
 62
     7
370
    25
100
AcDbLine
 10
516.9893617021
 20
-799.9000045931
 30
0.0
 11
516.9893617021
 21
-1249.9000045931
 31
0.0
  0
LINE
  5
B3
330
1F
100
AcDbEntity
  8
0
  6
Continuous
 62
     7
370
    25
100
AcDbLine
 10
1800.0021717006
 20
-991.0693662519
 30
0.0
 11
2033.9936370604
 21
-855.9889685667
 31
0.0
  0
LINE
  5
B4
330
1F
100
AcDbEntity
  8
0
  6
Continuous
 62
     7
370
    25
100
AcDbLine
 10
1809.0119222173
 20
-466.2669804954
 30
0.0
 11
1575.0204568575
 21
-601.3473781806
 31
0.0
  0
LINE
  5
B5
330
1F
100
AcDbEntity
  8
0
  6
Continuous
 62
     7
370
    25
100
AcDbLine
 10
1575.0204568575
 20
-601.3473781806
 30
0.0
 11
1341.0289914976
 21
-466.2669804954
 31
0.0
  0
LINE
  5
B6
330
1F
100
AcDbEntity
  8
0
  6
Continuous
 62
     7
370
    25
100
AcDbLine
 10
2033.9936370604
 20
-866.3069552886
 30
0.0
 11
2025.0570301435
 21
-861.1479619277
 31
0.0
  0
LINE
  5
B7
330
1F
100
AcDbEntity
  8
0
  6
Continuous
 62
     7
370
    25
100
AcDbLine
 10
1116.0472766545
 20
-855.9889685667
 30
0.0
 11
1809.0119222173
 21
-1256.0289433599
 31
0.0
  0
LWPOLYLINE
  5
B8
330
1F
100
AcDbEntity
  8
0
  6
Continuous
 62
     7
370
    25
100
AcDbPolyline
 90
      145
 70
   128
 43
0.0
 10
2051.6811380553
 20
-736.2783412244
 10
2051.5572371033
 20
-729.6497231912
 10
2051.1857700996
 20
-722.8906701149
 10
2050.5674441529
 20
-716.0140482371
 10
2049.7034362818
 20
-709.0329475986
 10
2048.5953911743
 20
-701.9606571211
 10
2047.2454180572
 20
-694.8106393115
 10
2045.6560866812
 20
-687.5965046351
 10
2043.8304224288
 20
-680.3319856073
 10
2041.7719005558
 20
-673.0309106529
 10
2039.4844395754
 20
-665.7071777831
 10
2036.9723937996
 20
-658.3747281396
 10
2034.2405450505
 20
-651.0475194571
 10
2031.2940935573
 20
-643.7394994938
 10
2028.1386480579
 20
-636.464579481
 10
2024.7802151222
 20
-629.2366076425
 10
2021.2251877181
 20
-622.0693428334
 10
2017.4803330425
 20
-614.9764283497
 10
2013.5527796389
 20
-607.9713659572
 10
2009.4500038285
 20
-601.0674901904
 10
2005.1798154783
 20
-594.2779429692
 10
2000.7503431345
 20
-587.6156485825
 10
1996.1700185494
 20
-581.0932890865
 10
1991.4475606313
 20
-574.723280163
 10
1986.5919588471
 20
-568.5177474862
 10
1981.6124561109
 20
-562.4885036403
 10
1976.5185311891
 20
-556.6470256334
 10
1971.3198806573
 20
-551.0044330511
 10
1966.0264004424
 20
-545.571466889
 10
1960.6481669847
 20
-540.358469107
 10
1955.1954180572
 20
-535.3753629427
 10
1949.6785332776
 20
-530.6316340219
 10
1944.1080143496
 20
-526.1363123021
 10
1938.4944650724
 20
-521.8979548838
 10
1932.8485711563
 20
-517.9246297212
 10
1927.1810798812
 20
-514.2239002647
 10
1921.5027796389
 20
-510.8028110629
 10
1915.8244793965
 20
-507.6678743538
 10
1910.1569881214
 20
-504.8250576674
 10
1904.5110942053
 20
-502.279772467
 10
1898.8975449282
 20
-500.0368638475
 10
1893.3270260001
 20
-498.1006013131
 10
1887.8101412205
 20
-496.4746706494
 10
1882.3573922931
 20
-495.162166908
 10
1876.9791588354
 20
-494.1655885142
 10
1871.6856786204
 20
-493.4868325118
 10
1866.4870280887
 20
-493.1271909512
 10
1861.3931031669
 20
-493.0873484308
 10
1856.4136004307
 20
-493.367380793
 10
1851.5579986465
 20
-493.9667549802
 10
1846.8355407283
 20
-494.8843300497
 10
1842.2552161433
 20
-496.1183593451
 10
1837.8257437995
 20
-497.6664938215
 10
1833.5555554492
 20
-499.525786517
 10
1829.4527796389
 20
-501.6926981623
 10
1825.5252262353
 20
-504.1631039178
 10
1821.7803715596
 20
-506.9323012259
 10
1818.2253441556
 20
-509.995018762
 10
1814.8669112199
 20
-513.3454264693
 10
1811.7114657205
 20
-516.9771466562
 10
1808.7650142273
 20
-520.8832661369
 10
1806.0331654781
 20
-525.0563493911
 10
1803.5211197024
 20
-529.4884527175
 10
1801.233658722
 20
-534.1711393556
 10
1799.1751368489
 20
-539.0954955452
 10
1797.3494725965
 20
-544.2521474945
 10
1795.7601412205
 20
-549.6312792232
 10
1794.4101681035
 20
-555.2226512486
 10
1793.302122996
 20
-561.0156200761
 10
1792.4381151248
 20
-566.9991584603
 10
1791.8197891781
 20
-573.1618763959
 10
1791.4483221745
 20
-579.4920427989
 10
1791.3244212224
 20
-585.9776078378
 10
1791.4483221745
 20
-592.606225871
 10
1791.8197891781
 20
-599.3652789473
 10
1792.4381151248
 20
-606.241900825
 10
1793.302122996
 20
-613.2230014636
 10
1794.4101681035
 20
-620.2952919411
 10
1795.7601412205
 20
-627.4453097507
 10
1797.3494725965
 20
-634.6594444271
 10
1799.1751368489
 20
-641.9239634549
 10
1801.233658722
 20
-649.2250384093
 10
1803.5211197024
 20
-656.5487712791
 10
1806.0331654781
 20
-663.8812209226
 10
1808.7650142273
 20
-671.2084296051
 10
1811.7114657205
 20
-678.5164495684
 10
1814.8669112199
 20
-685.7913695812
 10
1818.2253441556
 20
-693.0193414197
 10
1821.7803715596
 20
-700.1866062288
 10
1825.5252262353
 20
-707.2795207125
 10
1829.4527796389
 20
-714.2845831049
 10
1833.5555554493
 20
-721.1884588717
 10
1837.8257437995
 20
-727.978006093
 10
1842.2552161433
 20
-734.6403004797
 10
1846.8355407283
 20
-741.1626599757
 10
1851.5579986465
 20
-747.5326688991
 10
1856.4136004307
 20
-753.7382015759
 10
1861.3931031669
 20
-759.7674454219
 10
1866.4870280887
 20
-765.6089234288
 10
1871.6856786204
 20
-771.2515160111
 10
1876.9791588354
 20
-776.6844821732
 10
1882.3573922931
 20
-781.8974799551
 10
1887.8101412205
 20
-786.8805861195
 10
1893.3270260001
 20
-791.6243150403
 10
1898.8975449282
 20
-796.1196367601
 10
1904.5110942053
 20
-800.3579941784
 10
1910.1569881214
 20
-804.3313193409
 10
1915.8244793965
 20
-808.0320487975
 10
1921.5027796389
 20
-811.4531379993
 10
1927.1810798812
 20
-814.5880747084
 10
1932.8485711563
 20
-817.4308913948
 10
1938.4944650724
 20
-819.9761765952
 10
1944.1080143496
 20
-822.2190852147
 10
1949.6785332776
 20
-824.1553477491
 10
1955.1954180572
 20
-825.7812784128
 10
1960.6481669847
 20
-827.0937821542
 10
1966.0264004424
 20
-828.090360548
 10
1971.3198806573
 20
-828.7691165504
 10
1976.5185311891
 20
-829.1287581109
 10
1981.6124561109
 20
-829.1686006314
 10
1986.5919588471
 20
-828.8885682692
 10
1991.4475606313
 20
-828.289194082
 10
1996.1700185494
 20
-827.3716190125
 10
2000.7503431345
 20
-826.1375897171
 10
2005.1798154783
 20
-824.5894552407
 10
2009.4500038285
 20
-822.7301625452
 10
2013.5527796389
 20
-820.5632508999
 10
2017.4803330425
 20
-818.0928451443
 10
2021.2251877181
 20
-815.3236478363
 10
2024.7802151222
 20
-812.2609303002
 10
2028.1386480579
 20
-808.9105225929
 10
2031.2940935573
 20
-805.278802406
 10
2034.2405450505
 20
-801.3726829253
 10
2036.9723937996
 20
-797.1995996711
 10
2039.4844395754
 20
-792.7674963447
 10
2041.7719005558
 20
-788.0848097066
 10
2043.8304224288
 20
-783.160453517
 10
2045.6560866812
 20
-778.0038015677
 10
2047.2454180572
 20
-772.6246698389
 10
2048.5953911743
 20
-767.0332978136
 10
2049.7034362818
 20
-761.2403289861
 10
2050.5674441529
 20
-755.2567906019
 10
2051.1857700996
 20
-749.0940726663
 10
2051.5572371033
 20
-742.7639062633
 10
2051.6811380553
 20
-736.2783412244
  0
LWPOLYLINE
  5
B9
330
1F
100
AcDbEntity
  8
0
  6
Continuous
 62
     7
370
    25
100
AcDbPolyline
 90
      160
 70
   128
 43
0.0
 10
2080.6018054059
 20
-752.9738871111
 10
2080.4775982846
 20
-745.6439639739
 10
2080.1051708554
 20
-738.1820791519
 10
2079.4851046197
 20
-730.5998834923
 10
2078.618367737
 20
-722.9092156937
 10
2077.5063135143
 20
-715.1220838209
 10
2076.1506782922
 20
-707.2506465559
 10
2074.5535787342
 20
-699.3071942137
 10
2072.7175085216
 20
-691.3041295521
 10
2070.6453344601
 20
-683.2539484065
 10
2068.3402920036
 20
-675.1692201792
 10
2065.8059802021
 20
-667.0625682137
 10
2063.0463560828
 20
-658.9466500846
 10
2060.0657284711
 20
-650.8341378346
 10
2056.8687512633
 20
-642.7376981888
 10
2053.4604161596
 20
-634.6699727763
 10
2049.8460448708
 20
-626.6435583929
 10
2046.0312808087
 20
-618.6709873317
 10
2042.0220802743
 20
-610.7647078161
 10
2037.8247031586
 20
-602.937064563
 10
2033.4457031675
 20
-595.2002795081
 10
2028.8919175897
 20
-587.5664327229
 10
2024.1704566209
 20
-580.047443553
 10
2019.2886922618
 20
-572.6550520073
 10
2014.2542468081
 20
-565.4008004278
 10
2009.0749809487
 20
-558.2960154672
 10
2003.7589814924
 20
-551.3517904037
 10
1998.3145487412
 20
-544.5789678206
 10
1992.7501835308
 20
-537.9881226762
 10
1987.0745739567
 20
-531.5895457929
 10
1981.2965818096
 20
-525.393227789
 10
1975.4252287384
 20
-519.4088434794
 10
1969.4696821639
 20
-513.6457367699
 10
1963.4392409651
 20
-508.1129060674
 10
1957.3433209602
 20
-502.8189902304
 10
1951.1914402045
 20
-497.7722550799
 10
1944.9932041295
 20
-492.9805804939
 10
1938.7582905452
 20
-488.4514481033
 10
1932.496434529
 20
-484.1919296109
 10
1926.2174132257
 20
-480.208675749
 10
1919.9310305817
 20
-476.5079058958
 10
1913.6471020373
 20
-473.095398364
 10
1907.3754392009
 20
-469.9764813791
 10
1901.1258345296
 20
-467.1560247596
 10
1894.9080460392
 20
-464.638432314
 10
1888.7317820683
 20
-462.4276349637
 10
1882.60668612
 20
-460.5270846066
 10
1876.5423218045
 20
-458.9397487263
 10
1870.5481579068
 20
-457.6681057594
 10
1864.6335536022
 20
-456.7141412254
 10
1858.8077438433
 20
-456.0793446268
 10
1853.0798249404
 20
-455.7647071231
 10
1847.458740359
 20
-455.7707199833
 10
1841.9532667554
 20
-456.0973738191
 10
1836.572000273
 20
-456.7441585993
 10
1831.3233431208
 20
-457.7100644463
 10
1826.2154904537
 20
-458.9935832128
 10
1821.2564175774
 20
-460.5927108364
 10
1816.4538674955
 20
-462.5049504694
 10
1811.8153388199
 20
-464.7273163765
 10
1807.3480740624
 20
-467.2563385971
 10
1803.0590483267
 20
-470.0880683633
 10
1798.9549584173
 20
-473.2180842651
 10
1795.0422123835
 20
-476.6414991544
 10
1791.3269195136
 20
-480.3529677751
 10
1787.8148807966
 20
-484.3466951095
 10
1784.5115798638
 20
-488.6164454266
 10
1781.4221744277
 20
-493.155552018
 10
1778.5514882281
 20
-497.9569276077
 10
1775.9040035006
 20
-503.0130754176
 10
1773.4838539785
 20
-508.316100873
 10
1771.2948184379
 20
-513.8577239293
 10
1769.3403147979
 20
-519.6292919999
 10
1767.623394784
 20
-525.6217934664
 10
1766.146739163
 20
-531.825871749
 10
1764.9126535574
 20
-538.2318399161
 10
1763.9230648452
 20
-544.8296958087
 10
1763.1795181518
 20
-551.6091376581
 10
1762.6831744372
 20
-558.5595801706
 10
1762.434808683
 20
-565.6701710553
 10
1762.434808683
 20
-572.9298079686
 10
1762.6831744372
 20
-580.3271558492
 10
1763.1795181518
 20
-587.8506646166
 10
1763.9230648452
 20
-595.4885872048
 10
1764.9126535574
 20
-603.2289979045
 10
1766.146739163
 20
-611.0598109832
 10
1767.623394784
 20
-618.9687995558
 10
1769.3403147979
 20
-626.9436146756
 10
1771.2948184379
 20
-634.9718046153
 10
1773.4838539785
 20
-643.0408343095
 10
1775.9040035006
 20
-651.138104926
 10
1778.5514882281
 20
-659.250973538
 10
1781.4221744277
 20
-667.3667728643
 10
1784.5115798638
 20
-675.4728310476
 10
1787.8148807966
 20
-683.5564914402
 10
1791.3269195136
 20
-691.6051323661
 10
1795.0422123835
 20
-699.606186828
 10
1798.9549584173
 20
-707.5471621289
 10
1803.0590483267
 20
-715.4156593787
 10
1807.3480740624
 20
-723.199392853
 10
1811.8153388199
 20
-730.8862091759
 10
1816.4538674955
 20
-738.4641062962
 10
1821.2564175774
 20
-745.921252227
 10
1826.2154904537
 20
-753.2460035204
 10
1831.3233431208
 20
-760.4269234465
 10
1836.572000273
 20
-767.4527998514
 10
1841.9532667554
 20
-774.312662663
 10
1847.458740359
 20
-780.99580102
 10
1853.0798249404
 20
-787.4917799951
 10
1858.8077438433
 20
-793.7904568882
 10
1864.6335536022
 20
-799.8819970631
 10
1870.5481579068
 20
-805.756889303
 10
1876.5423218045
 20
-811.4059606609
 10
1882.60668612
 20
-816.8203907825
 10
1888.7317820683
 20
-821.991725678
 10
1894.9080460392
 20
-826.9118909217
 10
1901.1258345296
 20
-831.5732042597
 10
1907.3754392009
 20
-835.9683876045
 10
1913.6471020373
 20
-840.0905783992
 10
1919.9310305817
 20
-843.933340332
 10
1926.2174132257
 20
-847.4906733865
 10
1932.496434529
 20
-850.7570232092
 10
1938.7582905452
 20
-853.7272897828
 10
1944.9932041295
 20
-856.3968353885
 10
1951.1914402045
 20
-858.7614918478
 10
1957.3433209602
 20
-860.8175670304
 10
1963.4392409651
 20
-862.5618506188
 10
1969.4696821639
 20
-863.9916191213
 10
1975.4252287384
 20
-865.1046401242
 10
1981.2965818096
 20
-865.8991757773
 10
1987.0745739567
 20
-866.3739855074
 10
1992.7501835308
 20
-866.5283279555
 10
1998.3145487412
 20
-866.3619621343
 10
2003.7589814924
 20
-865.8751478041
 10
2009.0749809487
 20
-865.0686450679
 10
2014.2542468081
 20
-863.9437131838
 10
2019.2886922618
 20
-862.5021085995
 10
2024.1704566209
 20
-860.7460822094
 10
2028.8919175897
 20
-858.6783758402
 10
2033.4457031675
 20
-856.30221797
 10
2037.8247031586
 20
-853.6213186873
 10
2042.0220802743
 20
-850.639863898
 10
2046.0312808087
 20
-847.3625087899
 10
2049.8460448708
 20
-843.7943705639
 10
2053.4604161596
 20
-839.9410204443
 10
2056.8687512633
 20
-835.80847498
 10
2060.0657284711
 20
-831.4031866499
 10
2063.0463560828
 20
-826.7320337891
 10
2065.8059802021
 20
-821.8023098481
 10
2068.3402920036
 20
-816.6217120056
 10
2070.6453344601
 20
-811.1983291504
 10
2072.7175085216
 20
-805.5406292508
 10
2074.5535787342
 20
-799.6574461337
 10
2076.1506782922
 20
-793.5579656911
 10
2077.5063135143
 20
-787.2517115377
 10
2078.618367737
 20
-780.7485301408
 10
2079.4851046197
 20
-774.0585754461
 10
2080.1051708554
 20
-767.1922930237
 10
2080.4775982846
 20
-760.1604037586
 10
2080.6018054059
 20
-752.9738871111
  0
ELLIPSE
  5
BA
330
1F
100
AcDbEntity
  8
0
  6
Continuous
 62
     7
370
    25
100
AcDbEllipse
 10
1575.0204568575
 20
-861.1479619277
 30
0.0
 11
318.1980515339465
 21
4.547473508864641E-13
 31
0.0
210
0.0
220
0.0
230
1.0
 40
0.5773815452
 41
4.712388980384697
 42
5.49770587972005
  0
LINE
  5
BB
330
1F
100
AcDbEntity
  8
0
  6
Continuous
 62
     7
370
    25
100
AcDbLine
 10
1575.0204568575
 20
-601.3473781806
 30
0.0
 11
1575.0204568575
 21
-1044.8696446019
 31
0.0
  0
LWPOLYLINE
  5
BC
330
1F
100
AcDbEntity
  8
0
  6
Continuous
 62
     7
370
    25
100
AcDbPolyline
 90
      145
 70
   128
 43
0.0
 10
1358.7164924925
 20
-585.9776078378
 10
1358.5925915405
 20
-579.4920427989
 10
1358.2211245368
 20
-573.1618763959
 10
1357.6027985901
 20
-566.9991584603
 10
1356.738790719
 20
-561.0156200761
 10
1355.6307456115
 20
-555.2226512486
 10
1354.2807724944
 20
-549.6312792232
 10
1352.6914411184
 20
-544.2521474945
 10
1350.865776866
 20
-539.0954955452
 10
1348.8072549929
 20
-534.1711393556
 10
1346.5197940125
 20
-529.4884527175
 10
1344.0077482368
 20
-525.0563493911
 10
1341.2758994877
 20
-520.8832661369
 10
1338.3294479945
 20
-516.9771466562
 10
1335.1740024951
 20
-513.3454264693
 10
1331.8155695594
 20
-509.995018762
 10
1328.2605421553
 20
-506.9323012259
 10
1324.5156874797
 20
-504.1631039178
 10
1320.5881340761
 20
-501.6926981623
 10
1316.4853582657
 20
-499.525786517
 10
1312.2151699155
 20
-497.6664938215
 10
1307.7856975717
 20
-496.1183593451
 10
1303.2053729866
 20
-494.8843300497
 10
1298.4829150685
 20
-493.9667549802
 10
1293.6273132843
 20
-493.367380793
 10
1288.6478105481
 20
-493.0873484308
 10
1283.5538856263
 20
-493.1271909512
 10
1278.3552350945
 20
-493.4868325118
 10
1273.0617548796
 20
-494.1655885142
 10
1267.6835214218
 20
-495.162166908
 10
1262.2307724944
 20
-496.4746706494
 10
1256.7138877148
 20
-498.1006013131
 10
1251.1433687868
 20
-500.0368638475
 10
1245.5298195096
 20
-502.279772467
 10
1239.8839255935
 20
-504.8250576674
 10
1234.2164343184
 20
-507.6678743538
 10
1228.5381340761
 20
-510.8028110629
 10
1222.8598338337
 20
-514.2239002647
 10
1217.1923425586
 20
-517.9246297212
 10
1211.5464486425
 20
-521.8979548838
 10
1205.9328993654
 20
-526.1363123021
 10
1200.3623804373
 20
-530.6316340219
 10
1194.8454956577
 20
-535.3753629427
 10
1189.3927467303
 20
-540.358469107
 10
1184.0145132726
 20
-545.571466889
 10
1178.7210330576
 20
-551.0044330511
 10
1173.5223825258
 20
-556.6470256334
 10
1168.4284576041
 20
-562.4885036403
 10
1163.4489548678
 20
-568.5177474863
 10
1158.5933530837
 20
-574.723280163
 10
1153.8708951655
 20
-581.0932890865
 10
1149.2905705805
 20
-587.6156485825
 10
1144.8610982366
 20
-594.2779429692
 10
1140.5909098864
 20
-601.0674901904
 10
1136.4881340761
 20
-607.9713659572
 10
1132.5605806725
 20
-614.9764283497
 10
1128.8157259968
 20
-622.0693428334
 10
1125.2606985927
 20
-629.2366076425
 10
1121.902265657
 20
-636.464579481
 10
1118.7468201577
 20
-643.7394994938
 10
1115.8003686645
 20
-651.0475194571
 10
1113.0685199153
 20
-658.3747281396
 10
1110.5564741396
 20
-665.7071777831
 10
1108.2690131592
 20
-673.0309106529
 10
1106.2104912861
 20
-680.3319856073
 10
1104.3848270337
 20
-687.5965046351
 10
1102.7954956577
 20
-694.8106393115
 10
1101.4455225407
 20
-701.9606571211
 10
1100.3374774331
 20
-709.0329475986
 10
1099.473469562
 20
-716.0140482371
 10
1098.8551436153
 20
-722.8906701149
 10
1098.4836766117
 20
-729.6497231912
 10
1098.3597756596
 20
-736.2783412244
 10
1098.4836766117
 20
-742.7639062633
 10
1098.8551436153
 20
-749.0940726663
 10
1099.473469562
 20
-755.2567906019
 10
1100.3374774331
 20
-761.2403289861
 10
1101.4455225407
 20
-767.0332978136
 10
1102.7954956577
 20
-772.6246698389
 10
1104.3848270337
 20
-778.0038015677
 10
1106.2104912861
 20
-783.160453517
 10
1108.2690131592
 20
-788.0848097066
 10
1110.5564741396
 20
-792.7674963447
 10
1113.0685199153
 20
-797.1995996711
 10
1115.8003686645
 20
-801.3726829253
 10
1118.7468201577
 20
-805.278802406
 10
1121.9022656571
 20
-808.9105225929
 10
1125.2606985927
 20
-812.2609303002
 10
1128.8157259968
 20
-815.3236478363
 10
1132.5605806725
 20
-818.0928451443
 10
1136.4881340761
 20
-820.5632508999
 10
1140.5909098864
 20
-822.7301625452
 10
1144.8610982366
 20
-824.5894552407
 10
1149.2905705805
 20
-826.1375897171
 10
1153.8708951655
 20
-827.3716190125
 10
1158.5933530837
 20
-828.289194082
 10
1163.4489548678
 20
-828.8885682692
 10
1168.4284576041
 20
-829.1686006314
 10
1173.5223825259
 20
-829.1287581109
 10
1178.7210330576
 20
-828.7691165504
 10
1184.0145132726
 20
-828.090360548
 10
1189.3927467303
 20
-827.0937821542
 10
1194.8454956577
 20
-825.7812784128
 10
1200.3623804373
 20
-824.1553477491
 10
1205.9328993654
 20
-822.2190852147
 10
1211.5464486425
 20
-819.9761765952
 10
1217.1923425586
 20
-817.4308913948
 10
1222.8598338337
 20
-814.5880747084
 10
1228.5381340761
 20
-811.4531379993
 10
1234.2164343184
 20
-808.0320487975
 10
1239.8839255935
 20
-804.3313193409
 10
1245.5298195096
 20
-800.3579941784
 10
1251.1433687868
 20
-796.1196367601
 10
1256.7138877148
 20
-791.6243150403
 10
1262.2307724944
 20
-786.8805861195
 10
1267.6835214218
 20
-781.8974799551
 10
1273.0617548796
 20
-776.6844821731
 10
1278.3552350945
 20
-771.2515160111
 10
1283.5538856263
 20
-765.6089234288
 10
1288.6478105481
 20
-759.7674454219
 10
1293.6273132843
 20
-753.7382015759
 10
1298.4829150685
 20
-747.5326688991
 10
1303.2053729866
 20
-741.1626599757
 10
1307.7856975717
 20
-734.6403004797
 10
1312.2151699155
 20
-727.978006093
 10
1316.4853582657
 20
-721.1884588717
 10
1320.5881340761
 20
-714.2845831049
 10
1324.5156874797
 20
-707.2795207125
 10
1328.2605421553
 20
-700.1866062288
 10
1331.8155695594
 20
-693.0193414197
 10
1335.1740024951
 20
-685.7913695812
 10
1338.3294479945
 20
-678.5164495684
 10
1341.2758994877
 20
-671.2084296051
 10
1344.0077482368
 20
-663.8812209226
 10
1346.5197940125
 20
-656.5487712791
 10
1348.8072549929
 20
-649.2250384093
 10
1350.865776866
 20
-641.9239634549
 10
1352.6914411184
 20
-634.6594444271
 10
1354.2807724944
 20
-627.4453097507
 10
1355.6307456115
 20
-620.2952919411
 10
1356.738790719
 20
-613.2230014636
 10
1357.6027985901
 20
-606.241900825
 10
1358.2211245368
 20
-599.3652789473
 10
1358.5925915405
 20
-592.606225871
 10
1358.7164924925
 20
-585.9776078378
  0
LWPOLYLINE
  5
BD
330
1F
100
AcDbEntity
  8
0
  6
Continuous
 62
     7
370
    25
100
AcDbPolyline
 90
      160
 70
   128
 43
0.0
 10
1387.637159843
 20
-569.282061951
 10
1387.5129527218
 20
-562.0955453036
 10
1387.1405252926
 20
-555.0636560385
 10
1386.5204590568
 20
-548.1973736161
 10
1385.6537221742
 20
-541.5074189214
 10
1384.5416679515
 20
-535.0042375244
 10
1383.1860327294
 20
-528.6979833711
 10
1381.5889331714
 20
-522.5985029285
 10
1379.7528629588
 20
-516.7153198114
 10
1377.6806888973
 20
-511.0576199118
 10
1375.3756464408
 20
-505.6342370565
 10
1372.8413346393
 20
-500.4536392141
 10
1370.08171052
 20
-495.5239152731
 10
1367.1010829083
 20
-490.8527624122
 10
1363.9041057004
 20
-486.4474740822
 10
1360.4957705968
 20
-482.3149286178
 10
1356.881399308
 20
-478.4615784982
 10
1353.0666352458
 20
-474.8934402723
 10
1349.0574347115
 20
-471.6160851641
 10
1344.8600575957
 20
-468.6346303749
 10
1340.4810576046
 20
-465.9537310922
 10
1335.9272720269
 20
-463.577573222
 10
1331.2058110581
 20
-461.5098668528
 10
1326.324046699
 20
-459.7538404627
 10
1321.2896012453
 20
-458.3122358784
 10
1316.1103353859
 20
-457.1873039943
 10
1310.7943359295
 20
-456.380801258
 10
1305.3499031784
 20
-455.8939869279
 10
1299.7855379679
 20
-455.7276211066
 10
1294.1099283939
 20
-455.8819635548
 10
1288.3319362468
 20
-456.3567732849
 10
1282.4605831756
 20
-457.1513089379
 10
1276.5050366011
 20
-458.2643299408
 10
1270.4745954023
 20
-459.6940984434
 10
1264.3786753974
 20
-461.4383820318
 10
1258.2267946416
 20
-463.4944572143
 10
1252.0285585667
 20
-465.8591136736
 10
1245.7936449824
 20
-468.5286592794
 10
1239.5317889662
 20
-471.498925853
 10
1233.2527676629
 20
-474.7652756757
 10
1226.9663850189
 20
-478.3226087302
 10
1220.6824564744
 20
-482.165370663
 10
1214.4107936381
 20
-486.2875614577
 10
1208.1611889668
 20
-490.6827448025
 10
1201.9434004764
 20
-495.3440581405
 10
1195.7671365055
 20
-500.2642233842
 10
1189.6420405572
 20
-505.4355582797
 10
1183.5776762417
 20
-510.8499884013
 10
1177.583512344
 20
-516.4990597592
 10
1171.6689080394
 20
-522.373951999
 10
1165.8430982805
 20
-528.465492174
 10
1160.1151793776
 20
-534.7641690671
 10
1154.4940947962
 20
-541.2601480422
 10
1148.9886211926
 20
-547.9432863992
 10
1143.6073547102
 20
-554.8031492108
 10
1138.358697558
 20
-561.8290256157
 10
1133.2508448909
 20
-569.0099455418
 10
1128.2917720146
 20
-576.3346968352
 10
1123.4892219327
 20
-583.791842766
 10
1118.8506932571
 20
-591.3697398863
 10
1114.3834284996
 20
-599.0565562092
 10
1110.0944027639
 20
-606.8402896834
 10
1105.9903128545
 20
-614.7087869333
 10
1102.0775668206
 20
-622.6497622342
 10
1098.3622739508
 20
-630.650816696
 10
1094.8502352337
 20
-638.699457622
 10
1091.546934301
 20
-646.7831180146
 10
1088.4575288649
 20
-654.8891761979
 10
1085.5868426652
 20
-663.0049755242
 10
1082.9393579378
 20
-671.1178441362
 10
1080.5192084157
 20
-679.2151147527
 10
1078.330172875
 20
-687.2841444468
 10
1076.3756692351
 20
-695.3123343866
 10
1074.6587492212
 20
-703.2871495063
 10
1073.1820936002
 20
-711.196138079
 10
1071.9480079945
 20
-719.0269511576
 10
1070.9584192824
 20
-726.7673618574
 10
1070.214872589
 20
-734.4052844456
 10
1069.7185288744
 20
-741.928793213
 10
1069.4701631202
 20
-749.3261410936
 10
1069.4701631202
 20
-756.5857780069
 10
1069.7185288744
 20
-763.6963688916
 10
1070.214872589
 20
-770.6468114041
 10
1070.9584192824
 20
-777.4262532535
 10
1071.9480079945
 20
-784.0241091461
 10
1073.1820936002
 20
-790.4300773132
 10
1074.6587492212
 20
-796.6341555958
 10
1076.3756692351
 20
-802.6266570623
 10
1078.330172875
 20
-808.3982251329
 10
1080.5192084157
 20
-813.9398481892
 10
1082.9393579378
 20
-819.2428736446
 10
1085.5868426652
 20
-824.2990214545
 10
1088.4575288649
 20
-829.1003970441
 10
1091.546934301
 20
-833.6395036356
 10
1094.8502352337
 20
-837.9092539526
 10
1098.3622739508
 20
-841.9029812871
 10
1102.0775668206
 20
-845.6144499078
 10
1105.9903128545
 20
-849.0378647971
 10
1110.0944027639
 20
-852.1678806989
 10
1114.3834284996
 20
-854.9996104651
 10
1118.8506932571
 20
-857.5286326857
 10
1123.4892219327
 20
-859.7509985928
 10
1128.2917720146
 20
-861.6632382258
 10
1133.2508448909
 20
-863.2623658494
 10
1138.358697558
 20
-864.5458846159
 10
1143.6073547102
 20
-865.5117904628
 10
1148.9886211926
 20
-866.1585752431
 10
1154.4940947962
 20
-866.4852290789
 10
1160.1151793776
 20
-866.4912419391
 10
1165.8430982805
 20
-866.1766044354
 10
1171.6689080394
 20
-865.5418078367
 10
1177.583512344
 20
-864.5878433028
 10
1183.5776762417
 20
-863.3162003359
 10
1189.6420405572
 20
-861.7288644556
 10
1195.7671365055
 20
-859.8283140985
 10
1201.9434004764
 20
-857.6175167482
 10
1208.1611889668
 20
-855.0999243025
 10
1214.4107936381
 20
-852.2794676831
 10
1220.6824564745
 20
-849.1605506982
 10
1226.9663850189
 20
-845.7480431664
 10
1233.2527676629
 20
-842.0472733132
 10
1239.5317889662
 20
-838.0640194513
 10
1245.7936449824
 20
-833.8045009588
 10
1252.0285585667
 20
-829.2753685683
 10
1258.2267946416
 20
-824.4836939823
 10
1264.3786753974
 20
-819.4369588318
 10
1270.4745954023
 20
-814.1430429948
 10
1276.5050366011
 20
-808.6102122923
 10
1282.4605831756
 20
-802.8471055828
 10
1288.3319362468
 20
-796.8627212732
 10
1294.1099283939
 20
-790.6664032693
 10
1299.7855379679
 20
-784.267826386
 10
1305.3499031784
 20
-777.6769812416
 10
1310.7943359295
 20
-770.9041586585
 10
1316.1103353859
 20
-763.959933595
 10
1321.2896012453
 20
-756.8551486344
 10
1326.324046699
 20
-749.6008970549
 10
1331.2058110581
 20
-742.2085055092
 10
1335.9272720269
 20
-734.6895163393
 10
1340.4810576046
 20
-727.0556695541
 10
1344.8600575957
 20
-719.3188844992
 10
1349.0574347115
 20
-711.4912412461
 10
1353.0666352458
 20
-703.5849617304
 10
1356.881399308
 20
-695.6123906693
 10
1360.4957705968
 20
-687.5859762858
 10
1363.9041057004
 20
-679.5182508734
 10
1367.1010829083
 20
-671.4218112275
 10
1370.08171052
 20
-663.3092989776
 10
1372.8413346393
 20
-655.1933808485
 10
1375.3756464408
 20
-647.086728883
 10
1377.6806888973
 20
-639.0020006557
 10
1379.7528629588
 20
-630.9518195101
 10
1381.5889331714
 20
-622.9487548485
 10
1383.1860327294
 20
-615.0053025062
 10
1384.5416679515
 20
-607.1338652413
 10
1385.6537221742
 20
-599.3467333685
 10
1386.5204590568
 20
-591.6560655699
 10
1387.1405252926
 20
-584.0738699103
 10
1387.5129527218
 20
-576.6119850882
 10
1387.637159843
 20
-569.282061951
  0
LWPOLYLINE
  5
BE
330
1F
100
AcDbEntity
  8
0
  6
Continuous
 62
     7
370
    25
100
AcDbPolyline
 90
       21
 70
   128
 43
0.0
 10
2080.6018054059
 20
-969.3220367442
 10
2080.4775982846
 20
-962.1355200967
 10
2080.1051708554
 20
-955.1036308316
 10
2079.4851046197
 20
-948.2373484092
 10
2078.618367737
 20
-941.5473937145
 10
2077.5063135144
 20
-935.0442123176
 10
2076.1506782922
 20
-928.7379581642
 10
2074.5535787342
 20
-922.6384777216
 10
2072.7175085216
 20
-916.7552946045
 10
2070.6453344601
 20
-911.0975947049
 10
2068.3402920036
 20
-905.6742118497
 10
2065.8059802021
 20
-900.4936140072
 10
2063.0463560828
 20
-895.5638900662
 10
2060.0657284711
 20
-890.8927372054
 10
2056.8687512633
 20
-886.4874488754
 10
2053.4604161596
 20
-882.354903411
 10
2049.8460448708
 20
-878.5015532914
 10
2046.0312808087
 20
-874.9334150654
 10
2042.0220802743
 20
-871.6560599573
 10
2037.8247031586
 20
-868.674605168
 10
2033.9936370604
 20
-866.3069552886
  0
LWPOLYLINE
  5
BF
330
1F
100
AcDbEntity
  8
0
  6
Continuous
 62
     7
370
    25
100
AcDbPolyline
 90
       61
 70
   128
 43
0.0
 10
1809.0119222173
 20
-1256.0289433599
 10
1811.8153388199
 20
-1257.5686074788
 10
1816.4538674955
 20
-1259.7909733859
 10
1821.2564175774
 20
-1261.7032130189
 10
1826.2154904537
 20
-1263.3023406426
 10
1831.3233431208
 20
-1264.585859409
 10
1836.5720002731
 20
-1265.551765256
 10
1841.9532667554
 20
-1266.1985500362
 10
1847.458740359
 20
-1266.525203872
 10
1853.0798249404
 20
-1266.5312167322
 10
1858.8077438433
 20
-1266.2165792285
 10
1864.6335536022
 20
-1265.5817826299
 10
1870.5481579068
 20
-1264.6278180959
 10
1876.5423218045
 20
-1263.356175129
 10
1882.60668612
 20
-1261.7688392487
 10
1888.7317820683
 20
-1259.8682888916
 10
1894.9080460392
 20
-1257.6574915414
 10
1901.1258345296
 20
-1255.1398990957
 10
1907.3754392009
 20
-1252.3194424762
 10
1913.6471020373
 20
-1249.2005254913
 10
1919.9310305817
 20
-1245.7880179595
 10
1926.2174132257
 20
-1242.0872481063
 10
1932.496434529
 20
-1238.1039942444
 10
1938.7582905452
 20
-1233.844475752
 10
1944.9932041295
 20
-1229.3153433614
 10
1951.1914402045
 20
-1224.5236687754
 10
1957.3433209602
 20
-1219.4769336249
 10
1963.4392409651
 20
-1214.1830177879
 10
1969.4696821639
 20
-1208.6501870855
 10
1975.4252287384
 20
-1202.8870803759
 10
1981.2965818096
 20
-1196.9026960663
 10
1987.0745739567
 20
-1190.7063780624
 10
1992.7501835308
 20
-1184.3078011791
 10
1998.3145487412
 20
-1177.7169560347
 10
2003.7589814924
 20
-1170.9441334516
 10
2009.0749809487
 20
-1163.9999083881
 10
2014.2542468081
 20
-1156.8951234275
 10
2019.2886922618
 20
-1149.640871848
 10
2024.1704566209
 20
-1142.2484803023
 10
2028.8919175897
 20
-1134.7294911324
 10
2033.4457031675
 20
-1127.0956443472
 10
2037.8247031586
 20
-1119.3588592923
 10
2042.0220802743
 20
-1111.5312160392
 10
2046.0312808087
 20
-1103.6249365236
 10
2049.8460448708
 20
-1095.6523654624
 10
2053.4604161596
 20
-1087.625951079
 10
2056.8687512633
 20
-1079.5582256665
 10
2060.0657284711
 20
-1071.4617860207
 10
2063.0463560828
 20
-1063.3492737707
 10
2065.8059802021
 20
-1055.2333556416
 10
2068.3402920036
 20
-1047.1267036761
 10
2070.6453344601
 20
-1039.0419754488
 10
2072.7175085216
 20
-1030.9917943032
 10
2074.5535787342
 20
-1022.9887296416
 10
2076.1506782922
 20
-1015.0452772994
 10
2077.5063135144
 20
-1007.1738400344
 10
2078.618367737
 20
-999.3867081616
 10
2079.4851046197
 20
-991.696040363
 10
2080.1051708554
 20
-984.1138447034
 10
2080.4775982846
 20
-976.6519598814
 10
2080.6018054059
 20
-969.3220367442
  0
LINE
  5
C0
330
1F
100
AcDbEntity
  8
0
  6
Continuous
 62
     7
370
    25
100
AcDbLine
 10
80.2665946387
 20
-116.6489361702
 30
0.0
 11
570.2665946387
 21
-116.6489361702
 31
0.0
  0
LINE
  5
C1
330
1F
100
AcDbEntity
  8
0
  6
Continuous
 62
     7
370
    25
100
AcDbLine
 10
570.2665946387
 20
333.3510638298
 30
0.0
 11
80.2665946387
 21
333.3510638298
 31
0.0
  0
CIRCLE
  5
C2
330
1F
100
AcDbEntity
  8
0
  6
Continuous
 62
     7
370
    25
100
AcDbCircle
 10
80.2665946387
 20
108.3510638298
 30
0.0
 40
184.1000000000001
  0
CIRCLE
  5
C3
330
1F
100
AcDbEntity
  8
0
  6
Continuous
 62
     7
370
    25
100
AcDbCircle
 10
80.2665946387
 20
108.3510638298
 30
0.0
 40
225.0
  0
LINE
  5
C4
330
1F
100
AcDbEntity
  8
0
  6
Continuous
 62
     7
370
    25
100
AcDbLine
 10
570.2665946387
 20
333.3510638298
 30
0.0
 11
570.2665946387
 21
-116.6489361702
 31
0.0
  0
INSERT
  5
D0
330
1F
100
AcDbEntity
  8
FORMAT
 62
     7
100
AcDbBlockReference
  2
SW_CENTERMARKSYMBOL_1
 10
80.2665946387
 20
108.3510638298
 30
0.0
  0
ENDSEC
  0
SECTION
  2
OBJECTS
  0
DICTIONARY
  5
C
330
0
100
AcDbDictionary
281
     1
  3
ACAD_GROUP
350
D
  3
ACAD_LAYOUT
350
1A
  3
ACAD_MLINESTYLE
350
17
  3
ACAD_PLOTSETTINGS
350
19
  3
ACAD_PLOTSTYLENAME
350
E
  3
ACAD_SCALELIST
350
47
  3
DWGPROPS
350
D1
  0
DICTIONARY
  5
D
102
{ACAD_REACTORS
330
C
102
}
330
C
100
AcDbDictionary
281
     1
  0
DICTIONARY
  5
1A
102
{ACAD_REACTORS
330
C
102
}
330
C
100
AcDbDictionary
281
     1
  3
Layout1
350
1E
  3
Layout2
350
26
  3
Model
350
22
  0
DICTIONARY
  5
17
102
{ACAD_REACTORS
330
C
102
}
330
C
100
AcDbDictionary
281
     1
  3
Standard
350
18
  0
DICTIONARY
  5
19
102
{ACAD_REACTORS
330
C
102
}
330
C
100
AcDbDictionary
281
     1
  0
ACDBDICTIONARYWDFLT
  5
E
102
{ACAD_REACTORS
330
C
102
}
330
C
100
AcDbDictionary
281
     1
  3
Normal
350
F
100
AcDbDictionaryWithDefault
340
F
  0
DICTIONARY
  5
47
102
{ACAD_REACTORS
330
C
102
}
330
C
100
AcDbDictionary
281
     1
  3
A0
350
48
  3
A1
350
49
  3
A2
350
4A
  3
A3
350
4B
  3
A4
350
4C
  3
A5
350
4D
  3
A6
350
4E
  3
A7
350
4F
  3
A8
350
50
  3
A9
350
51
  3
B0
350
52
  3
B1
350
53
  3
B2
350
54
  3
B3
350
55
  3
B4
350
56
  3
B5
350
57
  3
B6
350
58
  3
B7
350
59
  3
B8
350
5A
  3
B9
350
5B
  3
C0
350
5C
  3
C1
350
5D
  3
C2
350
5E
  3
C3
350
5F
  3
C4
350
60
  3
C5
350
61
  3
C6
350
62
  3
C7
350
63
  3
C8
350
64
  3
C9
350
65
  3
D0
350
66
  3
D1
350
67
  3
D2
350
68
  0
XRECORD
  5
D1
102
{ACAD_REACTORS
330
C
102
}
330
C
100
AcDbXrecord
280
     1
  1
DWGPROPS COOKIE
  2

  3

  4

  6

  7

  8
b.kav
  9

300
=
301
=
302
=
303
=
304
=
305
=
306
=
307
=
308
=
309
=
 40
0.0
 41
2460608.405436007
 42
2460608.405436111
  1

 90
        0
  0
LAYOUT
  5
1E
102
{ACAD_REACTORS
330
1A
102
}
330
1A
100
AcDbPlotSettings
  1

  2
none_device
  4

  6

 40
0.0
 41
0.0
 42
0.0
 43
0.0
 44
0.0
 45
0.0
 46
0.0
 47
0.0
 48
0.0
 49
0.0
140
0.0
141
0.0
142
1.0
143
1.0
 70
   688
 72
     1
 73
     0
 74
     5
  7

 75
    16
147
1.0
148
0.0
149
0.0
100
AcDbLayout
  1
Layout1
 70
     1
 71
     1
 10
0.0
 20
0.0
 11
420.0
 21
297.0
 12
0.0
 22
0.0
 32
0.0
 14
1.0000000000E+20
 24
1.0000000000E+20
 34
1.0000000000E+20
 15
-1.0000000000E+20
 25
-1.0000000000E+20
 35
-1.0000000000E+20
146
0.0
 13
0.0
 23
0.0
 33
0.0
 16
1.0
 26
0.0
 36
0.0
 17
0.0
 27
1.0
 37
0.0
 76
     0
330
1B
  0
LAYOUT
  5
26
102
{ACAD_REACTORS
330
1A
102
}
330
1A
100
AcDbPlotSettings
  1

  2
none_device
  4

  6

 40
0.0
 41
0.0
 42
0.0
 43
0.0
 44
0.0
 45
0.0
 46
0.0
 47
0.0
 48
0.0
 49
0.0
140
0.0
141
0.0
142
1.0
143
1.0
 70
   688
 72
     1
 73
     0
 74
     5
  7

 75
    16
147
1.0
148
0.0
149
0.0
100
AcDbLayout
  1
Layout2
 70
     1
 71
     2
 10
0.0
 20
0.0
 11
0.0
 21
0.0
 12
0.0
 22
0.0
 32
0.0
 14
0.0
 24
0.0
 34
0.0
 15
0.0
 25
0.0
 35
0.0
146
0.0
 13
0.0
 23
0.0
 33
0.0
 16
1.0
 26
0.0
 36
0.0
 17
0.0
 27
1.0
 37
0.0
 76
     0
330
23
  0
LAYOUT
  5
22
102
{ACAD_REACTORS
330
1A
102
}
330
1A
100
AcDbPlotSettings
  1

  2
none_device
  4
Letter_(8.50_x_11.00_Inches)
  6

 40
6.35
 41
6.35
 42
6.35000508
 43
6.35000508
 44
215.9
 45
279.4
 46
0.0
 47
0.0
 48
0.0
 49
0.0
140
0.0
141
0.0
142
1.0
143
1.0
 70
  1712
 72
     1
 73
     0
 74
     0
  7

 75
     0
147
1.0
148
0.0
149
0.0
100
AcDbLayout
  1
Model
 70
     1
 71
     0
 10
0.0
 20
0.0
 11
279.4
 21
215.9
 12
0.0
 22
0.0
 32
0.0
 14
0.0
 24
0.0
 34
0.0
 15
279.4
 25
215.9
 35
0.0
146
0.0
 13
0.0
 23
0.0
 33
0.0
 16
1.0
 26
0.0
 36
0.0
 17
0.0
 27
1.0
 37
0.0
 76
     0
330
1F
331
29
  0
MLINESTYLE
  5
18
102
{ACAD_REACTORS
330
17
102
}
330
17
100
AcDbMlineStyle
  2
Standard
 70
     0
  3

 62
   256
 51
90.0
 52
90.0
 71
     2
 49
0.5
 62
   256
  6
BYLAYER
 49
-0.5
 62
   256
  6
BYLAYER
  0
ACDBPLACEHOLDER
  5
F
102
{ACAD_REACTORS
330
E
102
}
330
E
  0
SCALE
  5
48
102
{ACAD_REACTORS
330
47
102
}
330
47
100
AcDbScale
 70
     0
300
1:1
140
1.0
141
1.0
290
     1
  0
SCALE
  5
49
102
{ACAD_REACTORS
330
47
102
}
330
47
100
AcDbScale
 70
     0
300
1:2
140
1.0
141
2.0
290
     0
  0
SCALE
  5
4A
102
{ACAD_REACTORS
330
47
102
}
330
47
100
AcDbScale
 70
     0
300
1:4
140
1.0
141
4.0
290
     0
  0
SCALE
  5
4B
102
{ACAD_REACTORS
330
47
102
}
330
47
100
AcDbScale
 70
     0
300
1:5
140
1.0
141
5.0
290
     0
  0
SCALE
  5
4C
102
{ACAD_REACTORS
330
47
102
}
330
47
100
AcDbScale
 70
     0
300
1:8
140
1.0
141
8.0
290
     0
  0
SCALE
  5
4D
102
{ACAD_REACTORS
330
47
102
}
330
47
100
AcDbScale
 70
     0
300
1:10
140
1.0
141
10.0
290
     0
  0
SCALE
  5
4E
102
{ACAD_REACTORS
330
47
102
}
330
47
100
AcDbScale
 70
     0
300
1:16
140
1.0
141
16.0
290
     0
  0
SCALE
  5
4F
102
{ACAD_REACTORS
330
47
102
}
330
47
100
AcDbScale
 70
     0
300
1:20
140
1.0
141
20.0
290
     0
  0
SCALE
  5
50
102
{ACAD_REACTORS
330
47
102
}
330
47
100
AcDbScale
 70
     0
300
1:30
140
1.0
141
30.0
290
     0
  0
SCALE
  5
51
102
{ACAD_REACTORS
330
47
102
}
330
47
100
AcDbScale
 70
     0
300
1:40
140
1.0
141
40.0
290
     0
  0
SCALE
  5
52
102
{ACAD_REACTORS
330
47
102
}
330
47
100
AcDbScale
 70
     0
300
1:50
140
1.0
141
50.0
290
     0
  0
SCALE
  5
53
102
{ACAD_REACTORS
330
47
102
}
330
47
100
AcDbScale
 70
     0
300
1:100
140
1.0
141
100.0
290
     0
  0
SCALE
  5
54
102
{ACAD_REACTORS
330
47
102
}
330
47
100
AcDbScale
 70
     0
300
2:1
140
2.0
141
1.0
290
     0
  0
SCALE
  5
55
102
{ACAD_REACTORS
330
47
102
}
330
47
100
AcDbScale
 70
     0
300
4:1
140
4.0
141
1.0
290
     0
  0
SCALE
  5
56
102
{ACAD_REACTORS
330
47
102
}
330
47
100
AcDbScale
 70
     0
300
8:1
140
8.0
141
1.0
290
     0
  0
SCALE
  5
57
102
{ACAD_REACTORS
330
47
102
}
330
47
100
AcDbScale
 70
     0
300
10:1
140
10.0
141
1.0
290
     0
  0
SCALE
  5
58
102
{ACAD_REACTORS
330
47
102
}
330
47
100
AcDbScale
 70
     0
300
100:1
140
100.0
141
1.0
290
     0
  0
SCALE
  5
59
102
{ACAD_REACTORS
330
47
102
}
330
47
100
AcDbScale
 70
     0
300
1/128" = 1'-0"
140
0.0078125
141
12.0
290
     0
  0
SCALE
  5
5A
102
{ACAD_REACTORS
330
47
102
}
330
47
100
AcDbScale
 70
     0
300
1/64" = 1'-0"
140
0.015625
141
12.0
290
     0
  0
SCALE
  5
5B
102
{ACAD_REACTORS
330
47
102
}
330
47
100
AcDbScale
 70
     0
300
1/32" = 1'-0"
140
0.03125
141
12.0
290
     0
  0
SCALE
  5
5C
102
{ACAD_REACTORS
330
47
102
}
330
47
100
AcDbScale
 70
     0
300
1/16" = 1'-0"
140
0.0625
141
12.0
290
     0
  0
SCALE
  5
5D
102
{ACAD_REACTORS
330
47
102
}
330
47
100
AcDbScale
 70
     0
300
3/32" = 1'-0"
140
0.09375
141
12.0
290
     0
  0
SCALE
  5
5E
102
{ACAD_REACTORS
330
47
102
}
330
47
100
AcDbScale
 70
     0
300
1/8" = 1'-0"
140
0.125
141
12.0
290
     0
  0
SCALE
  5
5F
102
{ACAD_REACTORS
330
47
102
}
330
47
100
AcDbScale
 70
     0
300
3/16" = 1'-0"
140
0.1875
141
12.0
290
     0
  0
SCALE
  5
60
102
{ACAD_REACTORS
330
47
102
}
330
47
100
AcDbScale
 70
     0
300
1/4" = 1'-0"
140
0.25
141
12.0
290
     0
  0
SCALE
  5
61
102
{ACAD_REACTORS
330
47
102
}
330
47
100
AcDbScale
 70
     0
300
3/8" = 1'-0"
140
0.375
141
12.0
290
     0
  0
SCALE
  5
62
102
{ACAD_REACTORS
330
47
102
}
330
47
100
AcDbScale
 70
     0
300
1/2" = 1'-0"
140
0.5
141
12.0
290
     0
  0
SCALE
  5
63
102
{ACAD_REACTORS
330
47
102
}
330
47
100
AcDbScale
 70
     0
300
3/4" = 1'-0"
140
0.75
141
12.0
290
     0
  0
SCALE
  5
64
102
{ACAD_REACTORS
330
47
102
}
330
47
100
AcDbScale
 70
     0
300
1" = 1'-0"
140
1.0
141
12.0
290
     0
  0
SCALE
  5
65
102
{ACAD_REACTORS
330
47
102
}
330
47
100
AcDbScale
 70
     0
300
1-1/2" = 1'-0"
140
1.5
141
12.0
290
     0
  0
SCALE
  5
66
102
{ACAD_REACTORS
330
47
102
}
330
47
100
AcDbScale
 70
     0
300
3" = 1'-0"
140
3.0
141
12.0
290
     0
  0
SCALE
  5
67
102
{ACAD_REACTORS
330
47
102
}
330
47
100
AcDbScale
 70
     0
300
6" = 1'-0"
140
6.0
141
12.0
290
     0
  0
SCALE
  5
68
102
{ACAD_REACTORS
330
47
102
}
330
47
100
AcDbScale
 70
     0
300
1'-0" = 1'-0"
140
12.0
141
12.0
290
     0
  0
ENDSEC
  0
EOF
